This file is the author's own work and represents their interpretation of the song. You may only use this file for private study, scholarship, or research.


By: James M. Black (1856-1938)

When The Roll Is Called Up Yonder


Tuning : E A D G B E 	Time Signature: 4/4

 |       |       Swing eighths    |       |       |       |
|------------------------3---5---|7---7---7---7---7---5---3---3---|
|--------------------------------|--------------------------------|
|--------------------------------|--------------------------------|
|--------------------------------|--------------------------------|
|--------------------------------|--------------------------------|
|--------------------------------|--------------------------------|

 |       |       |       |        |       |       |       |
|5---3---3---------------3---5---|7---7---7---7---7---7---5---3---|
|------------5---3---------------|--------------------------------|
|--------------------------------|--------------------------------|
|--------------------------------|--------------------------------|
|--------------------------------|--------------------------------|
|--------------------------------|--------------------------------|

 |       |       |       |        |       |       |       |
|5-----------------------3---5---|7---7---7---7---7---5---3---3---|
|--------------------------------|--------------------------------|
|--------------------------------|--------------------------------|
|--------------------------------|--------------------------------|
|--------------------------------|--------------------------------|
|--------------------------------|--------------------------------|

 |       |       |       |        |       |       |       |
|5---3---3---------------3---5---|7---7---7---3---5---5---5---2---|
|------------5---3---------------|--------------------------------|
|--------------------------------|--------------------------------|
|--------------------------------|--------------------------------|
|--------------------------------|--------------------------------|
|--------------------------------|--------------------------------|

 |       |       |       |        |       |       |       |
|3-----------------------7---8---|10------------------8---7---8---|
|--------------------------------|--------------------------------|
|--------------------------------|--------------------------------|
|--------------------------------|--------------------------------|
|--------------------------------|--------------------------------|
|--------------------------------|--------------------------------|

 |       |       |       |        |       |       |       |
|10--------------7-------7---7---|8-------------------7---5---7---|
|--------------------------------|--------------------------------|
|--------------------------------|--------------------------------|
|--------------------------------|--------------------------------|
|--------------------------------|--------------------------------|
|--------------------------------|--------------------------------|

 |       |       |       |        |       |       |       |
|8---------------5-------7---8---|10------------------7---5---3---|
|--------------------------------|--------------------------------|
|--------------------------------|--------------------------------|
|--------------------------------|--------------------------------|
|--------------------------------|--------------------------------|
|--------------------------------|--------------------------------|

 |       |       |       |        |       |       |       |
|3---------------8-------8---8---|7---7---7---3---5---5---5---2---|
|--------------------------------|--------------------------------|
|------------------------9---9---|7---7---7---4---5---5---5---2---|
|--------------------------------|--------------------------------|
|--------------------------------|--------------------------------|
|--------------------------------|--------------------------------|

 |       |     Straight eighths   |       |       |       |
|3-----------------------3---5---|7---7---7---7---7---5---3---3---|
|------------------------3-------|8-------7-------6---6---5---4---|
|4-----------------------4-------|7-------7-------7---7---4---4---|
|--------------------------------|--------------------------------|
|--------------------------------|--------------------------------|
|--------------------------------|--------------------------------|

 |       |       |       |        |       |       |       |
|5---3---3---0-----------3---5---|7---7---7---7---7---7---5-------|
|5---1---2---2---3-------3-------|8---------------8-------5---8---|
|5---2---3---3---4-------4-------|7---------------6-------6-------|
|----------------5---------------|--------------------------------|
|--------------------------------|--------------------------------|
|--------------------------------|--------------------------------|

 |       |       |       |        |       |       |       |
|5-----------5---5-------3---5---|7---7---7---7---7---5---3---3---|
|8-------8-------7-------3-------|8-------8-------8---8---6---6---|
|5-------5-------5-------4-------|7-------8-------9---8---5---4---|
|----0---------------0-----------|--------------------------------|
|--------------------------------|--------------------------------|
|--------------------------------|--------------------------------|

 |       |       |       |        |       |       |       |
|5---3---3---0-----------3---5---|7---7---7-------5---5---5---2---|
|5---1---2---2-------3-------3---|7---7---7---8---7---5---7---1---|
|5---2---3---3-------4-------4---|6---6---6---6---5---5---5---2---|
|----------------5-----------4---|5-----5-----5---------7---0---0-|
|--------------------------------|--0-------0-------0-------------|
|--------------------------------|--------------------------------|

 |       |       |       |        |       |       Swing eighths
|3---3---3---5---3---3---3---5---|3-----------------------7---8---|
|3---------------4---------------|3-----------------------8---10--|
|4---------------5---------------|4-------------------0-----------|
|----------------5---------------|5-------------------------------|
|--------------------------------|--------------------------------|
|--------------------------------|--------------------------------|

 |       |       |       |        |       |       |       |
|10------10------10--8---7---8---|10------10------7-------7---10--|
|12------12------12--10--8---10--|12------12------8-------8---12--|
|----0-------0-------------------|----0-------0-------0-----------|
|--------------------------------|--------------------------------|
|--------------------------------|--------------------------------|
|--------------------------------|--------------------------------|

 |       |       |       |        |       |       |       |
|8-------8-------8---7---5---7---|8-------8-------5-------7---8---|
|10------10------10--8---7---8---|10------10------7-------8---10--|
|--------------------------------|--------------------0-----------|
|----0-------0-------------------|----0-------0-------------------|
|--------------------------------|--------------------------------|
|--------------------------------|--------------------------------|

 |       |       |       |        Straight|eighths|       |
|10------10------10--7---5---3---|3-----------3---8-------8---8---|
|12------12------12--8---7---5---|----1-----------8-------8-------|
|----0-------0-------------------|--------0-------9-------9-------|
|--------------------------------|--------2-----------------------|
|--------------------------------|3-------------------------------|
|--------------------------------|--------------------------------|

 |       |       |       |        |       |       |       |
|7---7---7---3---5---5---5---2---|3---------3-5---3-------3---5---|
|8---8---8---3---8---5---7---1---|3-3-------4-----3-------3-------|
|7---7---7---4---5---5---5---2---|4---4-----5-----4-------4-------|
|--0-------0-------0-------0-----|5-------5-------5---------------|
|--------------------------------|--------------------------------|
|--------------------------------|--------------------------------|

 |       |       |       |        |       |       |       |
|7---7---7---7---7---5---3---3---|5---3---3---0-----------3---5---|
|8-------7-------6---6---5---4---|5---1---2---2---3-------3-------|
|7-------7------7--7--4--4--|5--2--3--3--4-------4------|
|--------------------------------|----------------5--------------|
|--------------------------------|--------------------------------|
|--------------------------------|--------------------------------|

 |       |       |       |        |       |       |       |
|7---7---7---7---7---7---5-------|5-------5-------5-------3---5---|
|8---8---8---8---8---8---5---8---|8-------8-------7-------3-------|
|7--7--7--7--6--6--6--6---|5------5------5------4-------|
|----------------------------7--|----0------0------0----------|
|--------------------------------|--------------------------------|
|--------------------------------|--------------------------------|

 |       |       |       |        |       |       |       |
|--------------------------------|------------------------3---3-5-|
|--8---8---8---8---8---8---6---6-|--5---1---2---2-3---------3-----|
|7---7---8---8---9---8---5---4---|5---2---3---3-----4---4---------|
|--------------------------------|--------------------5-----------|
|--------------------------------|--------------------------------|
|--------------------------------|--------------------------------|

 |       |       |       |        |       |       |       |
|7-------7-------7---------------|5-------5-------5-------2-------|
|7-------7-------7-------8-------|7-------5-------7-------1-------|
|6-------6-------6-------6-------|5-------5-------5-------2-------|
|5-----------5-----------5-------|------------7-------0-------0---|
|----0---------------0-------0---|----0---------------------------|
|--------------------------------|--------------------------------|

 |       |       |       |        |       |       |       |
|3---3---3---5---3---3---3---5---|3-----------------------7---8---|
|3---------------4---------------|3-----------------------8---10--|
|4---------------5---------------|4-------------------0-----------|
|5---------------5---------------|5-------------------------------|
|--------------------------------|--------------------------------|
|--------------------------------|--------------------------------|

 |       |       |       |        |       |       |       |
|--10--10--10--10--10--8---7---8-|--10--10--10--10--7---7---7---7-|
|--------------------------------|--------------------------------|
|----0-------0-------0-------0---|----0-------0-------0-------0---|
|0-------0-------0-------0-------|0-------0-------0-------0-------|
|--------------------------------|--------------------------------|
|--------------------------------|--------------------------------|

 |       |       |       |        |       |       |       |
|--8---8---8---8---8---7---5---7-|--8---8---8---8---5---5---7---8-|
|--------------------------------|--------------------------------|
|--------------------------------|----------------------------0---|
|----0-------0-------0-------0---|----0-------0-------0---0-------|
|0-------0-------0-------0-------|0-------0-------0---------------|
|--------------------------------|--------------------------------|

 |       |       |       |        |       |       |       |
|--10--10--10--10----7---5---3---|3---------------3-----------8---|
|--------------------8---7---5---|1---1-------1-------1-----------|
|----0-------0-------------------|0-------0---------------0-------|
|0-------0-------0---------------|2-------------------------------|
|--------------------------------|3-------------------------------|
|--------------------------------|3b------------------------------|

 |       |       |       |        |       |       |       |
|8---------------8-------8-------|7-------7-------7-------3-------|
|8---------------8---------------|8-------8-------8-------3-------|
|8---------------8---------------|7-------7-------7-------4-------|
|7---------------7---------------|----0-------0-------0-------0---|
|8---------------8---------------|--------------------------------|
|8---------------8---------------|--------------------------------|

 |       |       |       |        |       |       |       |
|5-------5-------5-------2-------|3-------3-------3-------3-------|
|8-------5-------7-------1-------|3-------3-------4-------4-------|
|5-------5-------5-------2-------|4-------4-------5-------5-------|
|----0-------0-------0-------0---|----0-------0-------------------|
|--------------------------------|--------------------0-------0---|
|--------------------------------|--------------------------------|

 |       |       |       |
|------------3-------3----------|
|----------3-3-------------------|
|--------4-4-4-------------------|
|--------5-5---------------------|
|--------5-----------------------|
|3-------------------------------|

Home