This file is the author's own work and represents their interpretation of the song. You may only use this file for private study, scholarship, or research.


From: cohoon@simflex.com 
Arr. Bobby Cohoon


                              Just As I am 
                                                      


        e  e     h  q  Q e  q     Qe  Q  h  q     q q  q  h  q          
E-------------|--4--5--7\5--4--|--/4--5--4--7--|--7\2--4--5--9--|-------
B-------5--7--|--5--4--9-7--5--|--4------4--6--|--7-4-----------|-------
G---6:--------|----------------|------6--4--7--|--8-------6--8--|-------
D---4:--------|----------------|------4--6--6--|----------4--7--|-------
A-------------|--------7-6--4--|--2------------|----------------|-------
E-------------|--0-------------|---/-----------|--7-2--------7--|-------
                                                                        

    h   q  q  h     e  e     h  q  Q e  q     h   q   Q   e   q         
E---9------7--4--|--------|--4--5--7-5--4--|--9---11--12--11--9--|------
B---10-----9--5--|--5--7--|--0--4--9-7--3--|--10------11------8--|------
G----------------|--6--5--|-------------4--|----------12------9--|------
D----------------|--------|-------------3--|----------11------8--|------
A---0------------|--------|----------6-----|--0------------------|------
E-------0-----0--|--------|--0-----7\------|---------------------|------
                                                                        

    h  q  Q e  q     H  H     H h                                       
E---7--7--7\5--4--|--2--7--|--4/4--||-----------------------------------
B---9--9--9-7--5--|--4--9--|--0-0--||-----------------------------------
G-----------------|-----8--|--1-1--||-----------------------------------
D-----------------|--------|--2----||-----------------------------------
A-----------------|--2-----|-------||-----------------------------------
E---0-----0-------|-----7--|----0--||-----------------------------------
                                                                        



========================================================================
==                       TABLATURE EXPLANATION                        ==
========================================================================

----------                ----------                ----t---
----5h8--- Hammeron       ----(8)--- Ghost          ----6--- Tap
----------                ---------- Note           --------
----5p8--- Pulloff        ----------                --------

----------                ----------                -----p--
----5/8--- Slide Up       -----x---- Dead           -----7-- Pop
----------                ---------- Note           --s-----
----5\8--- Slide Down     ----------                --5----- Slap 

----------                ||------|| Repeat         --------
----5~~~-- Vibrato        ||*----*||                ---5^--- Bend
----------                ||*----*||                --------
----------                ||------||                --------

----------                ----------                --------
-4:------- Time           ----------                --------
-4:------- Signature      ----------                --------
----------                ----------                --------

Rhythm:
  w = whole note            W = dotted whole
  h = half note             H = dotted half
  q = quarter note          Q = dotted quarter
  e = eighth note           E = dotted eighth
  s = sixteenth note        S = dotted sixteenth
  t = 32nd note             T = dotted 32nd
  x = 64th note             X = dotted 64th
  ^ = triplet



Home