This file is the author's own work and represents their interpretation of the song. You may only use this file for private study, scholarship, or research.


GOD REST YE MERRY, GENTLEMEN

Here you go, GRYMY arranged by David Cohen on "How to Play Folk Guitar"
Kicking Mule Records (a long time ago) 
Play the first part twice with the two slightly different last bars then the
next part.							1st Time through
	Am						  E
|---||-----0---0------|----------------|----------------|-0-------------||
|---||-------------3--|-1---0----------|-----0---1---3--|-0-------------||
|-2-||-2---2---2------|---------2---0--|-2--------------|-1----------2--||
|---||-------------3--|-2---0----------|-----0---2---3--|-2-------------||
|---||-0--------------|---------0------|-0--------------|-2-------------||
|---||----------------|-------------3--|----------------|-0-------------||
  |    |   |   |   |    |   |   |   |    |   |   |   |    |   |   |   |
							2nd time through
							|-0----------0--||
							|-0-------------||
							|-1-------------||
							|-2-------------||
							|-2-------------||
							|-0-------------||
							  |   |   |   |
Dm				   Am
|-1-------0---1--|-3---5---0------|----------------|---------------|
|-----3----------|-------------3--|-1-------0---1--|-3------1---3--|
|-2-------0---2--|-3---5---0------|-----2----------|---------------|
|-----3----------|-------------3--|-2-------0---2--|-3------2---3--|
|----------------|----------------|----------------|---------------|
|----------------|----------------|----------------|---------------|
  |   |   |   |    |   |   |   |    |   |   |   |    |   |   |   |  Dm				   
|-0-------1---0--|-0--------------|----------------|---------------|
|----------------|-----3---1---0--|---------1P0----|-3------1---3--|
|-0-------2---0--|-0--------------|-2-----------2--|---------------|
|----------------|-----3---2---0--|---------2------|-3------2---3--|
|----------------|----------------|-0-----------0--|---------------|
|----------------|----------------|----------------|---------------| 
  |   |   |   |    |   |   |   |    |   |   |   |    |   |   |   |    
				   Am      G	    Am
|-0---1---3---5--|-0--------------|-----0-------0--|---|
|----------------|-----3---1---0--|-----1-------0--|---|
|-0---2---3---5--|-0--------------|---2---2-------0|---|
|----------------|-----3---2---0--|-----------0----|---|
|----------------|----------------|-0--------------|-0-|
|----------------|----------------|---------3------|---|
  |   |   |   |    |   |   |   |    |   |   |   |    |     

Selamat Hari Raya Christmas-- 
J. Trevor Jones - jjt@np.ac.sg - Ngee Ann Polytechnic - Singapore 2159
Home