This file is the author's own work and represents their interpretation of the song. You may only use this file for private study, scholarship, or research.


 
COME AND SEE

This is Graham Kendrick's "Come And See" transcribed for solo guitar.
The tab should be self-explanatory, though I'm not sure of some of the chords.
Any glaring errors, tell me (rhi@festival.ed.ac.uk or rhiannon@llais.demon.co.uk).
Thanks.

[NB - Spacing indicates timing, so -2-3- would be quavers, but -2---3- would
be crotchets. I also have, in transcribing this, halved the time, so that the 
bars aren't so long as to confuse people - ie the barlines come twice as 
frequently as in the original music. This shouldn't bother anybody, though.]


       Cmaj7             G                 Bb                A7sus    A7
|-0-1-|-3-----3-----1-2-|-3-----3-----1-2-|-3---3---1---1---|-0-----0-------0-|
|-----|-----0---0-------|-----0---0-------|---------3---3---|-----3---2---3---|
|-----|---2-------2-----|---0-------0-----|---3---3---3---3-|-----------0-----|
|-----|-----------------|-----------------|-----------------|---2-------------|
|-----|-3---------------|-2---------------|-1---------------|-0---------------|
|-----|-----------------|-----------------|-----------------|-----------------|

 Dm      A/C#      F   G   Am        Bb                G
|-1---1---0---0---|-5---3---0-------|-----------------|-------------0-1-|
|-----3---2---2---|---------------1-|-3-----3-----3-1-|-3-----3---------|
|---2---2---2---2-|-------------2---|-----3---3-------|-----0-----0-----|
|-0-------4-------|-3---2-----2-----|---3-------3-----|---0-------------|
|-----------------|---------0-------|-1---------------|-2---------------|
|-----------------|-----------------|-----------------|---------3-------|

 Cmaj7             G                 Bb                A7sus   A7
|-3-----3-----0-1-|-3-----3-----0-1-|-3---3---1---1---|-0-----0-------0-|
|-----0---0-------|-----0---0-------|---------3---3---|-----3---2---3---|
|---2-------2-----|---0-------0-----|---3---3---3---3-|-----------0-----|
|-----------------|-----------------|-----------------|---2-------------|
|-3---------------|-2---------------|-1---------------|-0---------------|
|-----------------|-----------------|-----------------|-----------------|

 Dm      A/C#      F   G   Am        Bb                G
|-1---1---0---0---|-5---3---0-------|-----------------|-------------3---|
|-----3---2---2---|---------------1-|-3-----3-----3-1-|-3-----3---------|
|---2---2---2---2-|-------------2---|-----3---3-------|-----0-----0--0--|
|-0-------4-------|-3---2-----2-----|---3-------3-----|---0-------------|
|-----------------|---------0-------|-1---------------|-2---------------|
|-----------------|-----------------|-----------------|---------3-------|

 Am                Em                Fmaj7             C/E
|-9---9---9---9---|-8-----8---------|-5---5---5---5---|-3-----3---------|
|-----11--11--11--|-----6---6---6---|-5---5---5---5---|-----1---1---1-1-|
|---10--10--10--10|---8-------8---6-|---5---5---5---5-|---0-------0-----|
|-----------------|-----------------|-3---------------|-----------------|
|-0---------------|-6---------------|-----------------|-----------------|
|-----------------|-----------------|-----------------|-0---------------|

 Dm                Am      Dm        Bb                G
|-1---1---3---1-0-|-----0---5-------|-----------------|-------------3---|
|-----3---3-------|---------------3-|-3-----3-----3-1-|-3-----3---------|
|---2---2---2-----|---2---2-----4---|-3---3---3-------|-----0-----0---0-|
|-0---------------|-----------5-----|---3-------3-----|---0-------------|
|-----------------|-0-------0-------|-1---------------|-2---------------|
|-----------------|-----------------|-----------------|---------3-------|

 Am                Em                Fmaj7             C/E
|-9---9---9---9---|-8-----8---------|-5---5---5---5---|-3-----3---------|
|-----11--11--11--|-----6---6---6---|-5---5---5---5---|-----1---1---1---|
|---10--10--10--10|---8-------8---6-|---5---5---5---5-|---0-------0---0-|
|-----------------|-----------------|-3---------------|-----------------|
|-0---------------|-6---------------|-----------------|-----------------|
|-----------------|-----------------|-----------------|-0---------------|

 Dm                Am      Dm        Bb                G
|-1---1---3---1-0-|-----0---5-------|-----------------|-----------------|
|-----3---3-------|---------------3-|-3-----3-----3-1-|-3-----3-----3---|
|---2---2---2-----|---2---2-----4---|-3---3---3-------|-----0-----0---0-|
|-0---------------|-----------5-----|---3-------3-----|---0-------------|
|-----------------|-0-------0-------|-1---------------|-2---------------|
|-----------------|-----------------|-----------------|---------3-------|

 G#dim             Am                G/F               A
|-1-----1-----1---|-0-----0-----0---|-3-----3-1-------|-0-----0-----0---|
|-----0---0-------|-----1---1-------|-----0-----0---0-|-----2---2-------|
|---1-------1---0-|---2-------2---2-|---0---------0---|---2-------2---2-|
|-0---------------|-----------------|-----------------|-----------------|
|-----------------|-0---------------|-----------------|-0---------------|
|-----------------|-----------------|-1---------------|-----------------|

 Dm7               G7                C                (TO REPEAT)
|-1-----1-----1---|-----1-------0---|-------------0---|-------------0-1-| 
|-----1---1-----0-|---------3-----1-|-----1---3-----3-|-1---------1-----|
|---2-------2-----|---0---0---0-----|---0---0---0-----|---0---0---------|
|-0---------------|-----------------|-----------------|-----2-----------|
|-----------------|-----------------|-3---------------|---------3-------|
|-----------------|-3---------------|-----------------|-----------------|

                                                      (LAST BAR TO END)
                                                      |-----------------|
                                                      |-1---------------|
                                                      |---0---0---------|
                                                      |-----2-----------|
                                                      |---------3-------|
                                                      |-----------------|


Home