This file is the author's own work and represents their interpretation of the song. You may only use this file for private study, scholarship, or research.


Alleluia
 
X = Do not play this string   ^ or V = strum direction
 
1-0-3 = hold finger 1 down as you also use finger 3 two frets up the neck.
 
                                                _____first ending__________
                                                |                         |
  3rd fret   3rd       2nd   5th   3rd   2nd    2nd   2nd    2nd     3rd
--1x---------1---------1-----3x-----1-----2-----0-----2------0--------------
--1----------1---------------3------x--------3-----3-----3------3-----1-----
----2----------2-------------3------x-----1-----1x----1------1x---------2---
------4----------4x----------3------x-----x-----x-----x------x--------x---3-
------3x---------3x----------x------x-----x-----x-----x------x--------x-----
--x----------x---------------x------x-----x-----x-----x------x--------x-----
 
 ^ ^         ^ ^ ^    ^      ^ ^ ^  ^     ^^    ^     ^      ^        ^
 
 _2nd ending_______      _________chorus____________________________________
|                 |      |
2nd    2nd     3rd       3rd      3rd       3rd       3rd     3rd     3rd
0------2-------1---------0x-------0x--------0x--------0x------0-------0x-----
--3------3-----1-----------1--------1x--------1--------1x-------1-------1----
1x-----1---------2-----------2--------2---------2--------2--------2------2x--
x------x-------------4---------3--------3---------3x-------3--------3x-----3x
x------x-------------3---x--------x---------x---------x-------x--------------
x------x-------x-----x---x--------x---------x---------x-------x--------------
^     ^        ^         ^        ^         ^         ^       ^       ^
 
   repeat
3rd     |    1st     1st   1st   1st       1st     1st   1st
0x------|----------------------------------0--------------------------------
--1x----|----1-------1x-----1-----1x---------1-----1-----1x-----------------
----2---|-------2------2------2------2---------2x----2-----2----------------
------3-|----------0------0-------------0-----------------------0-----------
--------|-------------------------------------------------------------------
--------|-------------------------------------------------------------------
 
^            ^       ^      ^      ^        ^       ^     ^
                                     $ = end of singing
                               $     G chord used for the following trill
1    1       1     1    1      1     2        2        2       2
----------------------------------------4x------4x-------4x------4x--------
1----1-0-3---1-----0-----------------x--------x--------x-------0-----------
------------------------0-2----0-----x--------0--------x-------x-----------
-------------------------------------x--------x--------0-------x-----------
-------------------------------------2x-------2x-------2x------2x----------
---------------------------------------3--------3x-------3x------3x--------
 
^    ^       ^     ^     ^     ^      ^       ^        ^       ^
ending guitar part.
2       2
--4x------4----------
x-------x------------
0-------x------------
x-------x------------
2x------2x-----------
--3x------3x---------
 
^       ^
Everyone's part
 
Al le lu ia, Al le lu ia, Al le lu ia, Al le lu ia
 
Al le lu ia, Al le lu ia, Al le lu ia, Praise the Lord.
 
alternate above with verses from  "What a friend we have in Jesus"
 
Example:  What a friend we,  have in Je sus, all our sins and, griefs to
bear.
 
 
Chorus:
Men's part
             hold
Al le lu oo   oo   oo  ia
 
Ladys part, echo softer
             hold
Al le lu oo   oo   oo  ia
 
 
Men's part
             hold
Al le lu oo   oo   oo  ia
 
 
Lady's part,  echo softer
             hold
Al le lu oo   oo   oo  ia
 
Everyone's part
 
Praise Jes sus,  King of Kings!
Home